  0
SECTION
  2
HEADER
  9
$ACADVER
  1
AC1018
  9
$ACADMAINTVER
 70
    39
  9
$DWGCODEPAGE
  3
ANSI_1252
  9
$LASTSAVEDBY
  1
fottrem
  9
$INSBASE
 10
0.0
 20
0.0
 30
0.0
  9
$EXTMIN
 10
16.24470255281198
 20
1.370035722265406
 30
0.0
  9
$EXTMAX
 10
25.75024958494824
 20
11.37002792312525
 30
0.0
  9
$LIMMIN
 10
0.0
 20
0.0
  9
$LIMMAX
 10
12.0
 20
9.0
  9
$ORTHOMODE
 70
     0
  9
$REGENMODE
 70
     1
  9
$FILLMODE
 70
     1
  9
$QTEXTMODE
 70
     0
  9
$MIRRTEXT
 70
     0
  9
$LTSCALE
 40
1.0
  9
$ATTMODE
 70
     1
  9
$TEXTSIZE
 40
0.2
  9
$TRACEWID
 40
0.05
  9
$TEXTSTYLE
  7
Standard
  9
$CLAYER
  8
0
  9
$CELTYPE
  6
ByLayer
  9
$CECOLOR
 62
   256
  9
$CELTSCALE
 40
1.0
  9
$DISPSILH
 70
     0
  9
$DIMSCALE
 40
1.0
  9
$DIMASZ
 40
0.18
  9
$DIMEXO
 40
0.0625
  9
$DIMDLI
 40
0.38
  9
$DIMRND
 40
0.0
  9
$DIMDLE
 40
0.0
  9
$DIMEXE
 40
0.18
  9
$DIMTP
 40
0.0
  9
$DIMTM
 40
0.0
  9
$DIMTXT
 40
0.18
  9
$DIMCEN
 40
0.09
  9
$DIMTSZ
 40
0.0
  9
$DIMTOL
 70
     0
  9
$DIMLIM
 70
     0
  9
$DIMTIH
 70
     1
  9
$DIMTOH
 70
     1
  9
$DIMSE1
 70
     0
  9
$DIMSE2
 70
     0
  9
$DIMTAD
 70
     0
  9
$DIMZIN
 70
     0
  9
$DIMBLK
  1

  9
$DIMASO
 70
     1
  9
$DIMSHO
 70
     1
  9
$DIMPOST
  1

  9
$DIMAPOST
  1

  9
$DIMALT
 70
     0
  9
$DIMALTD
 70
     2
  9
$DIMALTF
 40
25.4
  9
$DIMLFAC
 40
1.0
  9
$DIMTOFL
 70
     0
  9
$DIMTVP
 40
0.0
  9
$DIMTIX
 70
     0
  9
$DIMSOXD
 70
     0
  9
$DIMSAH
 70
     0
  9
$DIMBLK1
  1

  9
$DIMBLK2
  1

  9
$DIMSTYLE
  2
Standard
  9
$DIMCLRD
 70
     0
  9
$DIMCLRE
 70
     0
  9
$DIMCLRT
 70
     0
  9
$DIMTFAC
 40
1.0
  9
$DIMGAP
 40
0.09
  9
$DIMJUST
 70
     0
  9
$DIMSD1
 70
     0
  9
$DIMSD2
 70
     0
  9
$DIMTOLJ
 70
     1
  9
$DIMTZIN
 70
     0
  9
$DIMALTZ
 70
     0
  9
$DIMALTTZ
 70
     0
  9
$DIMUPT
 70
     0
  9
$DIMDEC
 70
     4
  9
$DIMTDEC
 70
     4
  9
$DIMALTU
 70
     2
  9
$DIMALTTD
 70
     2
  9
$DIMTXSTY
  7
Standard
  9
$DIMAUNIT
 70
     0
  9
$DIMADEC
 70
     0
  9
$DIMALTRND
 40
0.0
  9
$DIMAZIN
 70
     0
  9
$DIMDSEP
 70
    46
  9
$DIMATFIT
 70
     3
  9
$DIMFRAC
 70
     0
  9
$DIMLDRBLK
  1

  9
$DIMLUNIT
 70
     2
  9
$DIMLWD
 70
    -2
  9
$DIMLWE
 70
    -2
  9
$DIMTMOVE
 70
     0
  9
$LUNITS
 70
     2
  9
$LUPREC
 70
     4
  9
$SKETCHINC
 40
0.1
  9
$FILLETRAD
 40
0.0
  9
$AUNITS
 70
     0
  9
$AUPREC
 70
     0
  9
$MENU
  1
.
  9
$ELEVATION
 40
0.0
  9
$PELEVATION
 40
0.0
  9
$THICKNESS
 40
0.0
  9
$LIMCHECK
 70
     0
  9
$CHAMFERA
 40
0.0
  9
$CHAMFERB
 40
0.0
  9
$CHAMFERC
 40
0.0
  9
$CHAMFERD
 40
0.0
  9
$SKPOLY
 70
     0
  9
$TDCREATE
 40
2453354.092125822
  9
$TDUCREATE
 40
2453353.717125822
  9
$TDUPDATE
 40
2454792.358417165
  9
$TDUUPDATE
 40
2454791.983417165
  9
$TDINDWG
 40
0.0482059028
  9
$TDUSRTIMER
 40
0.0481706944
  9
$USRTIMER
 70
     1
  9
$ANGBASE
 50
0.0
  9
$ANGDIR
 70
     0
  9
$PDMODE
 70
     0
  9
$PDSIZE
 40
0.0
  9
$PLINEWID
 40
0.0
  9
$SPLFRAME
 70
     0
  9
$SPLINETYPE
 70
     6
  9
$SPLINESEGS
 70
     8
  9
$HANDSEED
  5
1C1
  9
$SURFTAB1
 70
     6
  9
$SURFTAB2
 70
     6
  9
$SURFTYPE
 70
     6
  9
$SURFU
 70
     6
  9
$SURFV
 70
     6
  9
$UCSBASE
  2

  9
$UCSNAME
  2

  9
$UCSORG
 10
0.0
 20
0.0
 30
0.0
  9
$UCSXDIR
 10
1.0
 20
0.0
 30
0.0
  9
$UCSYDIR
 10
0.0
 20
1.0
 30
0.0
  9
$UCSORTHOREF
  2

  9
$UCSORTHOVIEW
 70
     0
  9
$UCSORGTOP
 10
0.0
 20
0.0
 30
0.0
  9
$UCSORGBOTTOM
 10
0.0
 20
0.0
 30
0.0
  9
$UCSORGLEFT
 10
0.0
 20
0.0
 30
0.0
  9
$UCSORGRIGHT
 10
0.0
 20
0.0
 30
0.0
  9
$UCSORGFRONT
 10
0.0
 20
0.0
 30
0.0
  9
$UCSORGBACK
 10
0.0
 20
0.0
 30
0.0
  9
$PUCSBASE
  2

  9
$PUCSNAME
  2

  9
$PUCSORG
 10
0.0
 20
0.0
 30
0.0
  9
$PUCSXDIR
 10
1.0
 20
0.0
 30
0.0
  9
$PUCSYDIR
 10
0.0
 20
1.0
 30
0.0
  9
$PUCSORTHOREF
  2

  9
$PUCSORTHOVIEW
 70
     0
  9
$PUCSORGTOP
 10
0.0
 20
0.0
 30
0.0
  9
$PUCSORGBOTTOM
 10
0.0
 20
0.0
 30
0.0
  9
$PUCSORGLEFT
 10
0.0
 20
0.0
 30
0.0
  9
$PUCSORGRIGHT
 10
0.0
 20
0.0
 30
0.0
  9
$PUCSORGFRONT
 10
0.0
 20
0.0
 30
0.0
  9
$PUCSORGBACK
 10
0.0
 20
0.0
 30
0.0
  9
$USERI1
 70
     0
  9
$USERI2
 70
     0
  9
$USERI3
 70
     0
  9
$USERI4
 70
     0
  9
$USERI5
 70
     0
  9
$USERR1
 40
0.0
  9
$USERR2
 40
0.0
  9
$USERR3
 40
0.0
  9
$USERR4
 40
0.0
  9
$USERR5
 40
0.0
  9
$WORLDVIEW
 70
     1
  9
$SHADEDGE
 70
     3
  9
$SHADEDIF
 70
    70
  9
$TILEMODE
 70
     1
  9
$MAXACTVP
 70
    64
  9
$PINSBASE
 10
0.0
 20
0.0
 30
0.0
  9
$PLIMCHECK
 70
     0
  9
$PEXTMIN
 10
0.0
 20
0.0
 30
0.0
  9
$PEXTMAX
 10
0.0
 20
0.0
 30
0.0
  9
$PLIMMIN
 10
0.0
 20
0.0
  9
$PLIMMAX
 10
12.0
 20
9.0
  9
$UNITMODE
 70
     0
  9
$VISRETAIN
 70
     1
  9
$PLINEGEN
 70
     0
  9
$PSLTSCALE
 70
     1
  9
$TREEDEPTH
 70
  3020
  9
$CMLSTYLE
  2
Standard
  9
$CMLJUST
 70
     0
  9
$CMLSCALE
 40
1.0
  9
$PROXYGRAPHICS
 70
     1
  9
$MEASUREMENT
 70
     0
  9
$CELWEIGHT
370
    -1
  9
$ENDCAPS
280
     0
  9
$JOINSTYLE
280
     0
  9
$LWDISPLAY
290
     0
  9
$INSUNITS
 70
     1
  9
$HYPERLINKBASE
  1

  9
$STYLESHEET
  1

  9
$XEDIT
290
     0
  9
$CEPSNTYPE
380
     0
  9
$PSTYLEMODE
290
     0
  9
$FINGERPRINTGUID
  2
{8BAE0D3F-6380-4E3D-B0D1-267E31F469C1}
  9
$VERSIONGUID
  2
{6F1AD05E-3764-4268-ADD0-261F181DCA83}
  9
$EXTNAMES
290
     1
  9
$PSVPSCALE
 40
0.0
  9
$OLESTARTUP
290
     0
  9
$SORTENTS
280
   127
  9
$INDEXCTL
280
     0
  9
$HIDETEXT
280
     1
  9
$XCLIPFRAME
290
     0
  9
$HALOGAP
280
     0
  9
$OBSCOLOR
 70
   257
  9
$OBSLTYPE
280
     0
  9
$INTERSECTIONDISPLAY
280
     0
  9
$INTERSECTIONCOLOR
 70
   257
  9
$DIMASSOC
280
     2
  9
$PROJECTNAME
  1

  0
ENDSEC
  0
SECTION
  2
CLASSES
  0
CLASS
  1
ACDBDICTIONARYWDFLT
  2
AcDbDictionaryWithDefault
  3
ObjectDBX Classes
 90
        0
 91
        3
280
     0
281
     0
  0
CLASS
  1
ACDBPLACEHOLDER
  2
AcDbPlaceHolder
  3
ObjectDBX Classes
 90
        0
 91
        1
280
     0
281
     0
  0
CLASS
  1
LAYOUT
  2
AcDbLayout
  3
ObjectDBX Classes
 90
        0
 91
        1
280
     0
281
     0
  0
CLASS
  1
DICTIONARYVAR
  2
AcDbDictionaryVar
  3
ObjectDBX Classes
 90
        0
 91
        3
280
     0
281
     0
  0
CLASS
  1
TABLESTYLE
  2
AcDbTableStyle
  3
ObjectDBX Classes
 90
     2047
 91
        3
280
     0
281
     0
  0
ENDSEC
  0
SECTION
  2
TABLES
  0
TABLE
  2
VPORT
  5
8
330
0
100
AcDbSymbolTable
 70
     2
  0
VPORT
  5
97
330
8
100
AcDbSymbolTableRecord
100
AcDbViewportTableRecord
  2
*Active
 70
     0
 10
0.0
 20
0.0
 11
1.0
 21
1.0
 12
25.54758587206956
 22
5.232432440839688
 13
0.0
 23
0.0
 14
0.5
 24
0.5
 15
0.5
 25
0.5
 16
0.0
 26
0.0
 36
1.0
 17
0.0
 27
0.0
 37
0.0
 40
33.07663695334629
 41
2.031468531468532
 42
50.0
 43
0.0
 44
0.0
 50
0.0
 51
0.0
 71
    16
 72
  1000
 73
     1
 74
     1
 75
     0
 76
     0
 77
     0
 78
     0
281
     0
 65
     0
110
0.0
120
0.0
130
0.0
111
1.0
121
0.0
131
0.0
112
0.0
122
1.0
132
0.0
 79
     0
146
0.0
  0
ENDTAB
  0
TABLE
  2
LTYPE
  5
5
330
0
100
AcDbSymbolTable
 70
     1
  0
LTYPE
  5
14
330
5
100
AcDbSymbolTableRecord
100
AcDbLinetypeTableRecord
  2
ByBlock
 70
     0
  3

 72
    65
 73
     0
 40
0.0
  0
LTYPE
  5
15
330
5
100
AcDbSymbolTableRecord
100
AcDbLinetypeTableRecord
  2
ByLayer
 70
     0
  3

 72
    65
 73
     0
 40
0.0
  0
LTYPE
  5
16
330
5
100
AcDbSymbolTableRecord
100
AcDbLinetypeTableRecord
  2
Continuous
 70
     0
  3
Solid line
 72
    65
 73
     0
 40
0.0
  0
ENDTAB
  0
TABLE
  2
LAYER
  5
2
330
0
100
AcDbSymbolTable
 70
     2
  0
LAYER
  5
10
330
2
100
AcDbSymbolTableRecord
100
AcDbLayerTableRecord
  2
0
 70
     0
 62
     7
  6
Continuous
370
    -3
390
F
  0
LAYER
  5
EB
330
2
100
AcDbSymbolTableRecord
100
AcDbLayerTableRecord
  2
DEFPOINTS
 70
     0
 62
     7
  6
Continuous
290
     0
370
    -3
390
F
  0
ENDTAB
  0
TABLE
  2
STYLE
  5
3
330
0
100
AcDbSymbolTable
 70
     1
  0
STYLE
  5
11
330
3
100
AcDbSymbolTableRecord
100
AcDbTextStyleTableRecord
  2
Standard
 70
     0
 40
0.0
 41
1.0
 50
0.0
 71
     0
 42
0.2
  3
txt
  4

  0
ENDTAB
  0
TABLE
  2
VIEW
  5
6
330
0
100
AcDbSymbolTable
 70
     0
  0
ENDTAB
  0
TABLE
  2
UCS
  5
7
330
0
100
AcDbSymbolTable
 70
     0
  0
ENDTAB
  0
TABLE
  2
APPID
  5
9
330
0
100
AcDbSymbolTable
 70
     1
  0
APPID
  5
12
330
9
100
AcDbSymbolTableRecord
100
AcDbRegAppTableRecord
  2
ACAD
 70
     0
  0
ENDTAB
  0
TABLE
  2
DIMSTYLE
  5
A
330
0
100
AcDbSymbolTable
 70
     1
100
AcDbDimStyleTable
  0
DIMSTYLE
105
27
330
A
100
AcDbSymbolTableRecord
100
AcDbDimStyleTableRecord
  2
Standard
 70
     0
340
11
  0
ENDTAB
  0
TABLE
  2
BLOCK_RECORD
  5
1
330
0
100
AcDbSymbolTable
 70
     1
  0
BLOCK_RECORD
  5
1F
330
1
100
AcDbSymbolTableRecord
100
AcDbBlockTableRecord
  2
*Model_Space
340
22
  0
BLOCK_RECORD
  5
73
330
1
100
AcDbSymbolTableRecord
100
AcDbBlockTableRecord
  2
*Paper_Space
340
74
  0
BLOCK_RECORD
  5
9B
330
1
100
AcDbSymbolTableRecord
100
AcDbBlockTableRecord
  2
*Paper_Space0
340
9C
  0
ENDTAB
  0
ENDSEC
  0
SECTION
  2
BLOCKS
  0
BLOCK
  5
20
330
1F
100
AcDbEntity
  8
0
100
AcDbBlockBegin
  2
*Model_Space
 70
     0
 71
     0
 10
0.0
 20
0.0
 30
0.0
  3
*Model_Space
  1

  0
ENDBLK
  5
21
330
1F
100
AcDbEntity
  8
0
100
AcDbBlockEnd
  0
BLOCK
  5
75
330
73
100
AcDbEntity
 67
     1
  8
0
100
AcDbBlockBegin
  2
*Paper_Space
 70
     0
 71
     0
 10
0.0
 20
0.0
 30
0.0
  3
*Paper_Space
  1

  0
ENDBLK
  5
76
330
73
100
AcDbEntity
 67
     1
  8
0
100
AcDbBlockEnd
  0
BLOCK
  5
1BF
330
9B
100
AcDbEntity
  8
0
100
AcDbBlockBegin
  2
*Paper_Space0
 70
     0
 71
     0
 10
0.0
 20
0.0
 30
0.0
  3
*Paper_Space0
  1

  0
ENDBLK
  5
1C0
330
9B
100
AcDbEntity
  8
0
100
AcDbBlockEnd
  0
ENDSEC
  0
SECTION
  2
ENTITIES
  0
LINE
  5
9D
330
1F
100
AcDbEntity
  8
0
  6
Continuous
 62
     7
370
    15
100
AcDbLine
 10
23.87535511687988
 20
11.37002792312525
 30
0.0
 11
18.11959702087984
 21
11.37002792312525
 31
0.0
  0
LINE
  5
9E
330
1F
100
AcDbEntity
  8
0
  6
Continuous
 62
     7
370
    15
100
AcDbLine
 10
18.11959702087984
 20
11.37002792312525
 30
0.0
 11
18.11959702087984
 21
6.12280923833368
 31
0.0
  0
LINE
  5
9F
330
1F
100
AcDbEntity
  8
0
  6
Continuous
 62
     7
370
    15
100
AcDbLine
 10
18.11959702087984
 20
6.12280923833368
 30
0.0
 11
16.24470255281198
 21
6.122809238333254
 31
0.0
  0
LINE
  5
A0
330
1F
100
AcDbEntity
  8
0
  6
Continuous
 62
     7
370
    15
100
AcDbLine
 10
16.24470255281198
 20
6.122809238333254
 30
0.0
 11
20.99747606887983
 21
1.370035722265406
 31
0.0
  0
LINE
  5
A1
330
1F
100
AcDbEntity
  8
0
  6
Continuous
 62
     7
370
    15
100
AcDbLine
 10
20.99747606887983
 20
1.370035722265406
 30
0.0
 11
25.75024958494824
 21
6.12280923833368
 31
0.0
  0
LINE
  5
A2
330
1F
100
AcDbEntity
  8
0
  6
Continuous
 62
     7
370
    15
100
AcDbLine
 10
25.75024958494824
 20
6.12280923833368
 30
0.0
 11
23.87535511687985
 21
6.12280923833368
 31
0.0
  0
LINE
  5
A3
330
1F
100
AcDbEntity
  8
0
  6
Continuous
 62
     7
370
    15
100
AcDbLine
 10
23.87535511687985
 20
6.12280923833368
 30
0.0
 11
23.87535511687988
 21
11.37002792312525
 31
0.0
  0
LINE
  5
FA
330
1F
100
AcDbEntity
  8
0
100
AcDbLine
 10
20.96516399972609
 20
1.402347791419147
 30
0.0
 11
25.68562544664062
 21
6.12280923833368
 31
0.0
  0
LINE
  5
FB
330
1F
100
AcDbEntity
  8
0
100
AcDbLine
 10
20.9276873403232
 20
1.439824450822035
 30
0.0
 11
25.61067212783484
 21
6.122809238333678
 31
0.0
  0
LINE
  5
FC
330
1F
100
AcDbEntity
  8
0
100
AcDbLine
 10
20.89021068092031
 20
1.477301110224922
 30
0.0
 11
25.53571880902907
 21
6.122809238333678
 31
0.0
  0
LINE
  5
FD
330
1F
100
AcDbEntity
  8
0
100
AcDbLine
 10
20.85273402151742
 20
1.514777769627811
 30
0.0
 11
25.4607654902233
 21
6.122809238333681
 31
0.0
  0
LINE
  5
FE
330
1F
100
AcDbEntity
  8
0
100
AcDbLine
 10
20.81525736211454
 20
1.552254429030698
 30
0.0
 11
25.38581217141752
 21
6.122809238333681
 31
0.0
  0
LINE
  5
FF
330
1F
100
AcDbEntity
  8
0
100
AcDbLine
 10
20.77778070271165
 20
1.589731088433584
 30
0.0
 11
25.31085885261174
 21
6.122809238333678
 31
0.0
  0
LINE
  5
100
330
1F
100
AcDbEntity
  8
0
100
AcDbLine
 10
20.74030404330876
 20
1.627207747836472
 30
0.0
 11
25.23590553380597
 21
6.122809238333678
 31
0.0
  0
LINE
  5
101
330
1F
100
AcDbEntity
  8
0
100
AcDbLine
 10
20.70282738390587
 20
1.664684407239361
 30
0.0
 11
25.16095221500019
 21
6.122809238333678
 31
0.0
  0
LINE
  5
102
330
1F
100
AcDbEntity
  8
0
100
AcDbLine
 10
20.66535072450299
 20
1.702161066642248
 30
0.0
 11
25.08599889619442
 21
6.122809238333681
 31
0.0
  0
LINE
  5
103
330
1F
100
AcDbEntity
  8
0
100
AcDbLine
 10
20.6278740651001
 20
1.739637726045136
 30
0.0
 11
25.01104557738864
 21
6.122809238333681
 31
0.0
  0
LINE
  5
104
330
1F
100
AcDbEntity
  8
0
100
AcDbLine
 10
20.59039740569721
 20
1.777114385448025
 30
0.0
 11
24.93609225858286
 21
6.122809238333678
 31
0.0
  0
LINE
  5
105
330
1F
100
AcDbEntity
  8
0
100
AcDbLine
 10
20.55292074629432
 20
1.81459104485091
 30
0.0
 11
24.86113893977709
 21
6.122809238333679
 31
0.0
  0
LINE
  5
106
330
1F
100
AcDbEntity
  8
0
100
AcDbLine
 10
20.51544408689143
 20
1.852067704253798
 30
0.0
 11
24.78618562097132
 21
6.122809238333682
 31
0.0
  0
LINE
  5
107
330
1F
100
AcDbEntity
  8
0
100
AcDbLine
 10
20.47796742748855
 20
1.889544363656688
 30
0.0
 11
24.71123230216554
 21
6.122809238333682
 31
0.0
  0
LINE
  5
108
330
1F
100
AcDbEntity
  8
0
100
AcDbLine
 10
20.44049076808566
 20
1.927021023059575
 30
0.0
 11
24.63627898335977
 21
6.122809238333682
 31
0.0
  0
LINE
  5
109
330
1F
100
AcDbEntity
  8
0
100
AcDbLine
 10
20.40301410868277
 20
1.964497682462461
 30
0.0
 11
24.56132566455399
 21
6.122809238333679
 31
0.0
  0
LINE
  5
10A
330
1F
100
AcDbEntity
  8
0
100
AcDbLine
 10
20.36553744927988
 20
2.00197434186535
 30
0.0
 11
24.48637234574821
 21
6.122809238333679
 31
0.0
  0
LINE
  5
10B
330
1F
100
AcDbEntity
  8
0
100
AcDbLine
 10
20.328060789877
 20
2.039451001268238
 30
0.0
 11
24.41141902694244
 21
6.122809238333682
 31
0.0
  0
LINE
  5
10C
330
1F
100
AcDbEntity
  8
0
100
AcDbLine
 10
20.29058413047411
 20
2.076927660671125
 30
0.0
 11
24.33646570813666
 21
6.122809238333682
 31
0.0
  0
LINE
  5
10D
330
1F
100
AcDbEntity
  8
0
100
AcDbLine
 10
20.25310747107122
 20
2.114404320074012
 30
0.0
 11
24.26151238933089
 21
6.122809238333679
 31
0.0
  0
LINE
  5
10E
330
1F
100
AcDbEntity
  8
0
100
AcDbLine
 10
20.21563081166833
 20
2.151880979476899
 30
0.0
 11
24.18655907052511
 21
6.12280923833368
 31
0.0
  0
LINE
  5
10F
330
1F
100
AcDbEntity
  8
0
100
AcDbLine
 10
20.17815415226545
 20
2.18935763887979
 30
0.0
 11
24.11160575171934
 21
6.12280923833368
 31
0.0
  0
LINE
  5
110
330
1F
100
AcDbEntity
  8
0
100
AcDbLine
 10
20.14067749286255
 20
2.226834298282675
 30
0.0
 11
24.03665243291356
 21
6.12280923833368
 31
0.0
  0
LINE
  5
111
330
1F
100
AcDbEntity
  8
0
100
AcDbLine
 10
20.10320083345967
 20
2.264310957685564
 30
0.0
 11
23.96169911410779
 21
6.12280923833368
 31
0.0
  0
LINE
  5
112
330
1F
100
AcDbEntity
  8
0
100
AcDbLine
 10
20.06572417405678
 20
2.301787617088451
 30
0.0
 11
23.88674579530201
 21
6.12280923833368
 31
0.0
  0
LINE
  5
113
330
1F
100
AcDbEntity
  8
0
100
AcDbLine
 10
20.02824751465389
 20
2.339264276491339
 30
0.0
 11
23.87535511687985
 21
6.186371878717289
 31
0.0
  0
LINE
  5
114
330
1F
100
AcDbEntity
  8
0
100
AcDbLine
 10
19.99077085525101
 20
2.376740935894228
 30
0.0
 11
23.87535511687985
 21
6.261325197523064
 31
0.0
  0
LINE
  5
115
330
1F
100
AcDbEntity
  8
0
100
AcDbLine
 10
19.95329419584812
 20
2.414217595297113
 30
0.0
 11
23.87535511687985
 21
6.336278516328842
 31
0.0
  0
LINE
  5
116
330
1F
100
AcDbEntity
  8
0
100
AcDbLine
 10
19.91581753644523
 20
2.451694254700002
 30
0.0
 11
23.87535511687985
 21
6.411231835134617
 31
0.0
  0
LINE
  5
117
330
1F
100
AcDbEntity
  8
0
100
AcDbLine
 10
19.87834087704234
 20
2.489170914102891
 30
0.0
 11
23.87535511687985
 21
6.486185153940395
 31
0.0
  0
LINE
  5
118
330
1F
100
AcDbEntity
  8
0
100
AcDbLine
 10
19.84086421763945
 20
2.526647573505776
 30
0.0
 11
23.87535511687985
 21
6.56113847274617
 31
0.0
  0
LINE
  5
119
330
1F
100
AcDbEntity
  8
0
100
AcDbLine
 10
19.80338755823657
 20
2.564124232908665
 30
0.0
 11
23.87535511687985
 21
6.636091791551945
 31
0.0
  0
LINE
  5
11A
330
1F
100
AcDbEntity
  8
0
100
AcDbLine
 10
19.76591089883368
 20
2.601600892311553
 30
0.0
 11
23.87535511687985
 21
6.711045110357721
 31
0.0
  0
LINE
  5
11B
330
1F
100
AcDbEntity
  8
0
100
AcDbLine
 10
19.72843423943079
 20
2.639077551714441
 30
0.0
 11
23.87535511687985
 21
6.785998429163496
 31
0.0
  0
LINE
  5
11C
330
1F
100
AcDbEntity
  8
0
100
AcDbLine
 10
19.6909575800279
 20
2.676554211117327
 30
0.0
 11
23.87535511687985
 21
6.860951747969274
 31
0.0
  0
LINE
  5
11D
330
1F
100
AcDbEntity
  8
0
100
AcDbLine
 10
19.65348092062501
 20
2.714030870520215
 30
0.0
 11
23.87535511687985
 21
6.935905066775047
 31
0.0
  0
LINE
  5
11E
330
1F
100
AcDbEntity
  8
0
100
AcDbLine
 10
19.61600426122213
 20
2.751507529923105
 30
0.0
 11
23.87535511687985
 21
7.010858385580824
 31
0.0
  0
LINE
  5
11F
330
1F
100
AcDbEntity
  8
0
100
AcDbLine
 10
19.57852760181924
 20
2.78898418932599
 30
0.0
 11
23.87535511687985
 21
7.085811704386602
 31
0.0
  0
LINE
  5
120
330
1F
100
AcDbEntity
  8
0
100
AcDbLine
 10
19.54105094241635
 20
2.826460848728879
 30
0.0
 11
23.87535511687985
 21
7.160765023192377
 31
0.0
  0
LINE
  5
121
330
1F
100
AcDbEntity
  8
0
100
AcDbLine
 10
19.50357428301347
 20
2.863937508131767
 30
0.0
 11
23.87535511687985
 21
7.235718341998153
 31
0.0
  0
LINE
  5
122
330
1F
100
AcDbEntity
  8
0
100
AcDbLine
 10
19.46609762361058
 20
2.901414167534655
 30
0.0
 11
23.87535511687985
 21
7.310671660803925
 31
0.0
  0
LINE
  5
123
330
1F
100
AcDbEntity
  8
0
100
AcDbLine
 10
19.42862096420769
 20
2.938890826937544
 30
0.0
 11
23.87535511687985
 21
7.385624979609704
 31
0.0
  0
LINE
  5
124
330
1F
100
AcDbEntity
  8
0
100
AcDbLine
 10
19.3911443048048
 20
2.976367486340429
 30
0.0
 11
23.87535511687985
 21
7.460578298415479
 31
0.0
  0
LINE
  5
125
330
1F
100
AcDbEntity
  8
0
100
AcDbLine
 10
19.35366764540191
 20
3.013844145743316
 30
0.0
 11
23.87535511687986
 21
7.535531617221256
 31
0.0
  0
LINE
  5
126
330
1F
100
AcDbEntity
  8
0
100
AcDbLine
 10
19.31619098599903
 20
3.051320805146207
 30
0.0
 11
23.87535511687986
 21
7.610484936027034
 31
0.0
  0
LINE
  5
127
330
1F
100
AcDbEntity
  8
0
100
AcDbLine
 10
19.27871432659614
 20
3.088797464549093
 30
0.0
 11
23.87535511687986
 21
7.68543825483281
 31
0.0
  0
LINE
  5
128
330
1F
100
AcDbEntity
  8
0
100
AcDbLine
 10
19.24123766719325
 20
3.126274123951981
 30
0.0
 11
23.87535511687986
 21
7.760391573638585
 31
0.0
  0
LINE
  5
129
330
1F
100
AcDbEntity
  8
0
100
AcDbLine
 10
19.20376100779037
 20
3.163750783354868
 30
0.0
 11
23.87535511687986
 21
7.83534489244436
 31
0.0
  0
LINE
  5
12A
330
1F
100
AcDbEntity
  8
0
100
AcDbLine
 10
19.16628434838748
 20
3.201227442757754
 30
0.0
 11
23.87535511687986
 21
7.910298211250132
 31
0.0
  0
LINE
  5
12B
330
1F
100
AcDbEntity
  8
0
100
AcDbLine
 10
19.12880768898459
 20
3.238704102160641
 30
0.0
 11
23.87535511687986
 21
7.985251530055907
 31
0.0
  0
LINE
  5
12C
330
1F
100
AcDbEntity
  8
0
100
AcDbLine
 10
19.0913310295817
 20
3.276180761563529
 30
0.0
 11
23.87535511687986
 21
8.06020484886168
 31
0.0
  0
LINE
  5
12D
330
1F
100
AcDbEntity
  8
0
100
AcDbLine
 10
19.05385437017882
 20
3.313657420966417
 30
0.0
 11
23.87535511687986
 21
8.135158167667452
 31
0.0
  0
LINE
  5
12E
330
1F
100
AcDbEntity
  8
0
100
AcDbLine
 10
19.01637771077593
 20
3.351134080369302
 30
0.0
 11
23.87535511687986
 21
8.21011148647323
 31
0.0
  0
LINE
  5
12F
330
1F
100
AcDbEntity
  8
0
100
AcDbLine
 10
18.97890105137304
 20
3.388610739772189
 30
0.0
 11
23.87535511687986
 21
8.285064805279001
 31
0.0
  0
LINE
  5
130
330
1F
100
AcDbEntity
  8
0
100
AcDbLine
 10
18.94142439197016
 20
3.426087399175077
 30
0.0
 11
23.87535511687986
 21
8.360018124084776
 31
0.0
  0
LINE
  5
131
330
1F
100
AcDbEntity
  8
0
100
AcDbLine
 10
18.90394773256727
 20
3.463564058577963
 30
0.0
 11
23.87535511687986
 21
8.434971442890554
 31
0.0
  0
LINE
  5
132
330
1F
100
AcDbEntity
  8
0
100
AcDbLine
 10
18.86647107316438
 20
3.50104071798085
 30
0.0
 11
23.87535511687986
 21
8.509924761696325
 31
0.0
  0
LINE
  5
133
330
1F
100
AcDbEntity
  8
0
100
AcDbLine
 10
18.8289944137615
 20
3.538517377383736
 30
0.0
 11
23.87535511687986
 21
8.584878080502099
 31
0.0
  0
LINE
  5
134
330
1F
100
AcDbEntity
  8
0
100
AcDbLine
 10
18.79151775435861
 20
3.575994036786623
 30
0.0
 11
23.87535511687986
 21
8.659831399307876
 31
0.0
  0
LINE
  5
135
330
1F
100
AcDbEntity
  8
0
100
AcDbLine
 10
18.75404109495572
 20
3.61347069618951
 30
0.0
 11
23.87535511687986
 21
8.73478471811365
 31
0.0
  0
LINE
  5
136
330
1F
100
AcDbEntity
  8
0
100
AcDbLine
 10
18.71656443555284
 20
3.650947355592395
 30
0.0
 11
23.87535511687986
 21
8.809738036919422
 31
0.0
  0
LINE
  5
137
330
1F
100
AcDbEntity
  8
0
100
AcDbLine
 10
18.67908777614995
 20
3.688424014995284
 30
0.0
 11
23.87535511687986
 21
8.884691355725197
 31
0.0
  0
LINE
  5
138
330
1F
100
AcDbEntity
  8
0
100
AcDbLine
 10
18.64161111674706
 20
3.72590067439817
 30
0.0
 11
23.87535511687986
 21
8.95964467453097
 31
0.0
  0
LINE
  5
139
330
1F
100
AcDbEntity
  8
0
100
AcDbLine
 10
18.60413445734417
 20
3.763377333801056
 30
0.0
 11
23.87535511687987
 21
9.034597993336746
 31
0.0
  0
LINE
  5
13A
330
1F
100
AcDbEntity
  8
0
100
AcDbLine
 10
18.56665779794129
 20
3.800853993203944
 30
0.0
 11
23.87535511687987
 21
9.10955131214252
 31
0.0
  0
LINE
  5
13B
330
1F
100
AcDbEntity
  8
0
100
AcDbLine
 10
18.5291811385384
 20
3.838330652606831
 30
0.0
 11
23.87535511687986
 21
9.184504630948291
 31
0.0
  0
LINE
  5
13C
330
1F
100
AcDbEntity
  8
0
100
AcDbLine
 10
18.49170447913551
 20
3.875807312009718
 30
0.0
 11
23.87535511687987
 21
9.259457949754067
 31
0.0
  0
LINE
  5
13D
330
1F
100
AcDbEntity
  8
0
100
AcDbLine
 10
18.45422781973263
 20
3.913283971412604
 30
0.0
 11
23.87535511687987
 21
9.33441126855984
 31
0.0
  0
LINE
  5
13E
330
1F
100
AcDbEntity
  8
0
100
AcDbLine
 10
18.41675116032974
 20
3.950760630815493
 30
0.0
 11
23.87535511687986
 21
9.409364587365612
 31
0.0
  0
LINE
  5
13F
330
1F
100
AcDbEntity
  8
0
100
AcDbLine
 10
18.37927450092685
 20
3.988237290218378
 30
0.0
 11
23.87535511687987
 21
9.48431790617139
 31
0.0
  0
LINE
  5
140
330
1F
100
AcDbEntity
  8
0
100
AcDbLine
 10
18.34179784152397
 20
4.025713949621265
 30
0.0
 11
23.87535511687987
 21
9.559271224977163
 31
0.0
  0
LINE
  5
141
330
1F
100
AcDbEntity
  8
0
100
AcDbLine
 10
18.30432118212108
 20
4.063190609024152
 30
0.0
 11
23.87535511687987
 21
9.634224543782938
 31
0.0
  0
LINE
  5
142
330
1F
100
AcDbEntity
  8
0
100
AcDbLine
 10
18.26684452271819
 20
4.100667268427038
 30
0.0
 11
23.87535511687987
 21
9.70917786258871
 31
0.0
  0
LINE
  5
143
330
1F
100
AcDbEntity
  8
0
100
AcDbLine
 10
18.22936786331531
 20
4.138143927829925
 30
0.0
 11
23.87535511687987
 21
9.784131181394484
 31
0.0
  0
LINE
  5
144
330
1F
100
AcDbEntity
  8
0
100
AcDbLine
 10
18.19189120391242
 20
4.175620587232812
 30
0.0
 11
23.87535511687987
 21
9.85908450020026
 31
0.0
  0
LINE
  5
145
330
1F
100
AcDbEntity
  8
0
100
AcDbLine
 10
18.15441454450954
 20
4.213097246635699
 30
0.0
 11
23.87535511687987
 21
9.934037819006036
 31
0.0
  0
LINE
  5
146
330
1F
100
AcDbEntity
  8
0
100
AcDbLine
 10
18.11693788510665
 20
4.250573906038586
 30
0.0
 11
23.87535511687987
 21
10.00899113781181
 31
0.0
  0
LINE
  5
147
330
1F
100
AcDbEntity
  8
0
100
AcDbLine
 10
18.07946122570376
 20
4.288050565441472
 30
0.0
 11
23.87535511687987
 21
10.08394445661758
 31
0.0
  0
LINE
  5
148
330
1F
100
AcDbEntity
  8
0
100
AcDbLine
 10
18.04198456630087
 20
4.325527224844359
 30
0.0
 11
23.87535511687987
 21
10.15889777542336
 31
0.0
  0
LINE
  5
149
330
1F
100
AcDbEntity
  8
0
100
AcDbLine
 10
18.00450790689799
 20
4.363003884247246
 30
0.0
 11
23.87535511687987
 21
10.23385109422913
 31
0.0
  0
LINE
  5
14A
330
1F
100
AcDbEntity
  8
0
100
AcDbLine
 10
17.9670312474951
 20
4.400480543650133
 30
0.0
 11
23.87535511687987
 21
10.3088044130349
 31
0.0
  0
LINE
  5
14B
330
1F
100
AcDbEntity
  8
0
100
AcDbLine
 10
17.92955458809221
 20
4.43795720305302
 30
0.0
 11
23.87535511687987
 21
10.38375773184068
 31
0.0
  0
LINE
  5
14C
330
1F
100
AcDbEntity
  8
0
100
AcDbLine
 10
17.89207792868933
 20
4.475433862455906
 30
0.0
 11
23.87535511687987
 21
10.45871105064645
 31
0.0
  0
LINE
  5
14D
330
1F
100
AcDbEntity
  8
0
100
AcDbLine
 10
17.85460126928644
 20
4.512910521858793
 30
0.0
 11
23.87535511687987
 21
10.53366436945223
 31
0.0
  0
LINE
  5
14E
330
1F
100
AcDbEntity
  8
0
100
AcDbLine
 10
17.81712460988355
 20
4.55038718126168
 30
0.0
 11
23.87535511687987
 21
10.608617688258
 31
0.0
  0
LINE
  5
14F
330
1F
100
AcDbEntity
  8
0
100
AcDbLine
 10
17.77964795048067
 20
4.587863840664567
 30
0.0
 11
23.87535511687988
 21
10.68357100706378
 31
0.0
  0
LINE
  5
150
330
1F
100
AcDbEntity
  8
0
100
AcDbLine
 10
17.74217129107778
 20
4.625340500067454
 30
0.0
 11
23.87535511687988
 21
10.75852432586955
 31
0.0
  0
LINE
  5
151
330
1F
100
AcDbEntity
  8
0
100
AcDbLine
 10
17.70469463167489
 20
4.66281715947034
 30
0.0
 11
23.87535511687988
 21
10.83347764467532
 31
0.0
  0
LINE
  5
152
330
1F
100
AcDbEntity
  8
0
100
AcDbLine
 10
17.66721797227201
 20
4.700293818873227
 30
0.0
 11
23.87535511687988
 21
10.9084309634811
 31
0.0
  0
LINE
  5
153
330
1F
100
AcDbEntity
  8
0
100
AcDbLine
 10
17.62974131286912
 20
4.737770478276114
 30
0.0
 11
23.87535511687988
 21
10.98338428228687
 31
0.0
  0
LINE
  5
154
330
1F
100
AcDbEntity
  8
0
100
AcDbLine
 10
17.59226465346623
 20
4.775247137679001
 30
0.0
 11
23.87535511687988
 21
11.05833760109264
 31
0.0
  0
LINE
  5
155
330
1F
100
AcDbEntity
  8
0
100
AcDbLine
 10
17.55478799406335
 20
4.812723797081888
 30
0.0
 11
23.87535511687988
 21
11.13329091989842
 31
0.0
  0
LINE
  5
156
330
1F
100
AcDbEntity
  8
0
100
AcDbLine
 10
17.51731133466046
 20
4.850200456484774
 30
0.0
 11
23.87535511687988
 21
11.20824423870419
 31
0.0
  0
LINE
  5
157
330
1F
100
AcDbEntity
  8
0
100
AcDbLine
 10
17.47983467525757
 20
4.887677115887661
 30
0.0
 11
23.87535511687988
 21
11.28319755750997
 31
0.0
  0
LINE
  5
158
330
1F
100
AcDbEntity
  8
0
100
AcDbLine
 10
17.44235801585468
 20
4.925153775290548
 30
0.0
 11
23.87535511687988
 21
11.35815087631574
 31
0.0
  0
LINE
  5
159
330
1F
100
AcDbEntity
  8
0
100
AcDbLine
 10
17.4048813564518
 20
4.962630434693435
 30
0.0
 11
23.81227884488361
 21
11.37002792312525
 31
0.0
  0
LINE
  5
15A
330
1F
100
AcDbEntity
  8
0
100
AcDbLine
 10
17.36740469704891
 20
5.000107094096322
 30
0.0
 11
23.73732552607784
 21
11.37002792312525
 31
0.0
  0
LINE
  5
15B
330
1F
100
AcDbEntity
  8
0
100
AcDbLine
 10
17.32992803764602
 20
5.037583753499209
 30
0.0
 11
23.66237220727206
 21
11.37002792312525
 31
0.0
  0
LINE
  5
15C
330
1F
100
AcDbEntity
  8
0
100
AcDbLine
 10
17.29245137824314
 20
5.075060412902095
 30
0.0
 11
23.58741888846629
 21
11.37002792312524
 31
0.0
  0
LINE
  5
15D
330
1F
100
AcDbEntity
  8
0
100
AcDbLine
 10
17.25497471884025
 20
5.112537072304982
 30
0.0
 11
23.51246556966051
 21
11.37002792312524
 31
0.0
  0
LINE
  5
15E
330
1F
100
AcDbEntity
  8
0
100
AcDbLine
 10
17.21749805943736
 20
5.150013731707868
 30
0.0
 11
23.43751225085474
 21
11.37002792312525
 31
0.0
  0
LINE
  5
15F
330
1F
100
AcDbEntity
  8
0
100
AcDbLine
 10
17.18002140003448
 20
5.187490391110756
 30
0.0
 11
18.1153402472574
 21
6.122809238333679
 31
0.0
  0
LINE
  5
160
330
1F
100
AcDbEntity
  8
0
100
AcDbLine
 10
18.11959702087984
 20
6.127066011956122
 30
0.0
 11
23.36255893204897
 21
11.37002792312525
 31
0.0
  0
LINE
  5
161
330
1F
100
AcDbEntity
  8
0
100
AcDbLine
 10
17.14254474063159
 20
5.224967050513643
 30
0.0
 11
18.04038692845161
 21
6.122809238333661
 31
0.0
  0
LINE
  5
162
330
1F
100
AcDbEntity
  8
0
100
AcDbLine
 10
18.11959702087984
 20
6.202019330761894
 30
0.0
 11
23.28760561324319
 21
11.37002792312525
 31
0.0
  0
LINE
  5
163
330
1F
100
AcDbEntity
  8
0
100
AcDbLine
 10
17.1050680812287
 20
5.262443709916528
 30
0.0
 11
17.96543360964582
 21
6.122809238333645
 31
0.0
  0
LINE
  5
164
330
1F
100
AcDbEntity
  8
0
100
AcDbLine
 10
18.11959702087984
 20
6.276972649567669
 30
0.0
 11
23.21265229443742
 21
11.37002792312525
 31
0.0
  0
LINE
  5
165
330
1F
100
AcDbEntity
  8
0
100
AcDbLine
 10
17.06759142182582
 20
5.299920369319416
 30
0.0
 11
17.89048029084003
 21
6.122809238333627
 31
0.0
  0
LINE
  5
166
330
1F
100
AcDbEntity
  8
0
100
AcDbLine
 10
18.11959702087984
 20
6.351925968373443
 30
0.0
 11
23.13769897563165
 21
11.37002792312525
 31
0.0
  0
LINE
  5
167
330
1F
100
AcDbEntity
  8
0
100
AcDbLine
 10
17.03011476242293
 20
5.337397028722303
 30
0.0
 11
17.81552697203424
 21
6.122809238333611
 31
0.0
  0
LINE
  5
168
330
1F
100
AcDbEntity
  8
0
100
AcDbLine
 10
18.11959702087984
 20
6.426879287179215
 30
0.0
 11
23.06274565682587
 21
11.37002792312524
 31
0.0
  0
LINE
  5
169
330
1F
100
AcDbEntity
  8
0
100
AcDbLine
 10
16.99263810302004
 20
5.37487368812519
 30
0.0
 11
17.74057365322845
 21
6.122809238333595
 31
0.0
  0
LINE
  5
16A
330
1F
100
AcDbEntity
  8
0
100
AcDbLine
 10
18.11959702087984
 20
6.50183260598499
 30
0.0
 11
22.9877923380201
 21
11.37002792312524
 31
0.0
  0
LINE
  5
16B
330
1F
100
AcDbEntity
  8
0
100
AcDbLine
 10
16.95516144361716
 20
5.412350347528077
 30
0.0
 11
17.66562033442266
 21
6.122809238333577
 31
0.0
  0
LINE
  5
16C
330
1F
100
AcDbEntity
  8
0
100
AcDbLine
 10
18.11959702087984
 20
6.576785924790764
 30
0.0
 11
22.91283901921433
 21
11.37002792312525
 31
0.0
  0
LINE
  5
16D
330
1F
100
AcDbEntity
  8
0
100
AcDbLine
 10
16.91768478421427
 20
5.449827006930963
 30
0.0
 11
17.59066701561687
 21
6.122809238333561
 31
0.0
  0
LINE
  5
16E
330
1F
100
AcDbEntity
  8
0
100
AcDbLine
 10
18.11959702087984
 20
6.651739243596536
 30
0.0
 11
22.83788570040856
 21
11.37002792312525
 31
0.0
  0
LINE
  5
16F
330
1F
100
AcDbEntity
  8
0
100
AcDbLine
 10
16.88020812481138
 20
5.487303666333849
 30
0.0
 11
17.51571369681108
 21
6.122809238333545
 31
0.0
  0
LINE
  5
170
330
1F
100
AcDbEntity
  8
0
100
AcDbLine
 10
18.11959702087984
 20
6.72669256240231
 30
0.0
 11
22.76293238160278
 21
11.37002792312525
 31
0.0
  0
LINE
  5
171
330
1F
100
AcDbEntity
  8
0
100
AcDbLine
 10
16.84273146540849
 20
5.524780325736737
 30
0.0
 11
17.44076037800528
 21
6.122809238333524
 31
0.0
  0
LINE
  5
172
330
1F
100
AcDbEntity
  8
0
100
AcDbLine
 10
18.11959702087984
 20
6.801645881208082
 30
0.0
 11
22.68797906279701
 21
11.37002792312525
 31
0.0
  0
LINE
  5
173
330
1F
100
AcDbEntity
  8
0
100
AcDbLine
 10
16.80525480600561
 20
5.562256985139624
 30
0.0
 11
17.3658070591995
 21
6.12280923833351
 31
0.0
  0
LINE
  5
174
330
1F
100
AcDbEntity
  8
0
100
AcDbLine
 10
18.11959702087984
 20
6.876599200013857
 30
0.0
 11
22.61302574399123
 21
11.37002792312525
 31
0.0
  0
LINE
  5
175
330
1F
100
AcDbEntity
  8
0
100
AcDbLine
 10
16.76777814660272
 20
5.599733644542511
 30
0.0
 11
17.2908537403937
 21
6.122809238333493
 31
0.0
  0
LINE
  5
176
330
1F
100
AcDbEntity
  8
0
100
AcDbLine
 10
18.11959702087984
 20
6.951552518819633
 30
0.0
 11
22.53807242518546
 21
11.37002792312525
 31
0.0
  0
LINE
  5
177
330
1F
100
AcDbEntity
  8
0
100
AcDbLine
 10
16.73030148719984
 20
5.637210303945397
 30
0.0
 11
17.21590042158791
 21
6.122809238333474
 31
0.0
  0
LINE
  5
178
330
1F
100
AcDbEntity
  8
0
100
AcDbLine
 10
18.11959702087984
 20
7.026505837625403
 30
0.0
 11
22.46311910637968
 21
11.37002792312524
 31
0.0
  0
LINE
  5
179
330
1F
100
AcDbEntity
  8
0
100
AcDbLine
 10
16.69282482779695
 20
5.674686963348284
 30
0.0
 11
17.14094710278212
 21
6.122809238333458
 31
0.0
  0
LINE
  5
17A
330
1F
100
AcDbEntity
  8
0
100
AcDbLine
 10
18.11959702087984
 20
7.101459156431177
 30
0.0
 11
22.38816578757391
 21
11.37002792312524
 31
0.0
  0
LINE
  5
17B
330
1F
100
AcDbEntity
  8
0
100
AcDbLine
 10
16.65534816839406
 20
5.712163622751171
 30
0.0
 11
17.06599378397633
 21
6.122809238333439
 31
0.0
  0
LINE
  5
17C
330
1F
100
AcDbEntity
  8
0
100
AcDbLine
 10
18.11959702087984
 20
7.176412475236954
 30
0.0
 11
22.31321246876814
 21
11.37002792312525
 31
0.0
  0
LINE
  5
17D
330
1F
100
AcDbEntity
  8
0
100
AcDbLine
 10
16.61787150899118
 20
5.749640282154058
 30
0.0
 11
16.99104046517054
 21
6.122809238333423
 31
0.0
  0
LINE
  5
17E
330
1F
100
AcDbEntity
  8
0
100
AcDbLine
 10
18.11959702087984
 20
7.251365794042726
 30
0.0
 11
22.23825914996236
 21
11.37002792312524
 31
0.0
  0
LINE
  5
17F
330
1F
100
AcDbEntity
  8
0
100
AcDbLine
 10
16.58039484958829
 20
5.787116941556945
 30
0.0
 11
16.91608714636475
 21
6.122809238333408
 31
0.0
  0
LINE
  5
180
330
1F
100
AcDbEntity
  8
0
100
AcDbLine
 10
18.11959702087984
 20
7.3263191128485
 30
0.0
 11
22.16330583115659
 21
11.37002792312524
 31
0.0
  0
LINE
  5
181
330
1F
100
AcDbEntity
  8
0
100
AcDbLine
 10
16.5429181901854
 20
5.824593600959831
 30
0.0
 11
16.84113382755896
 21
6.12280923833339
 31
0.0
  0
LINE
  5
182
330
1F
100
AcDbEntity
  8
0
100
AcDbLine
 10
18.11959702087984
 20
7.401272431654275
 30
0.0
 11
22.08835251235082
 21
11.37002792312525
 31
0.0
  0
LINE
  5
183
330
1F
100
AcDbEntity
  8
0
100
AcDbLine
 10
16.50544153078252
 20
5.862070260362718
 30
0.0
 11
16.76618050875317
 21
6.122809238333371
 31
0.0
  0
LINE
  5
184
330
1F
100
AcDbEntity
  8
0
100
AcDbLine
 10
18.11959702087984
 20
7.476225750460044
 30
0.0
 11
22.01339919354504
 21
11.37002792312525
 31
0.0
  0
LINE
  5
185
330
1F
100
AcDbEntity
  8
0
100
AcDbLine
 10
16.46796487137963
 20
5.899546919765605
 30
0.0
 11
16.69122718994738
 21
6.122809238333355
 31
0.0
  0
LINE
  5
186
330
1F
100
AcDbEntity
  8
0
100
AcDbLine
 10
18.11959702087984
 20
7.551179069265821
 30
0.0
 11
21.93844587473927
 21
11.37002792312525
 31
0.0
  0
LINE
  5
187
330
1F
100
AcDbEntity
  8
0
100
AcDbLine
 10
16.43048821197674
 20
5.937023579168492
 30
0.0
 11
16.61627387114159
 21
6.122809238333339
 31
0.0
  0
LINE
  5
188
330
1F
100
AcDbEntity
  8
0
100
AcDbLine
 10
18.11959702087984
 20
7.626132388071595
 30
0.0
 11
21.86349255593349
 21
11.37002792312524
 31
0.0
  0
LINE
  5
189
330
1F
100
AcDbEntity
  8
0
100
AcDbLine
 10
16.39301155257385
 20
5.974500238571379
 30
0.0
 11
16.5413205523358
 21
6.122809238333321
 31
0.0
  0
LINE
  5
18A
330
1F
100
AcDbEntity
  8
0
100
AcDbLine
 10
18.11959702087984
 20
7.701085706877365
 30
0.0
 11
21.78853923712772
 21
11.37002792312525
 31
0.0
  0
LINE
  5
18B
330
1F
100
AcDbEntity
  8
0
100
AcDbLine
 10
16.35553489317097
 20
6.011976897974265
 30
0.0
 11
16.46636723353
 21
6.122809238333303
 31
0.0
  0
LINE
  5
18C
330
1F
100
AcDbEntity
  8
0
100
AcDbLine
 10
18.11959702087984
 20
7.776039025683142
 30
0.0
 11
21.71358591832195
 21
11.37002792312524
 31
0.0
  0
LINE
  5
18D
330
1F
100
AcDbEntity
  8
0
100
AcDbLine
 10
16.31805823376808
 20
6.049453557377152
 30
0.0
 11
16.39141391472421
 21
6.122809238333286
 31
0.0
  0
LINE
  5
18E
330
1F
100
AcDbEntity
  8
0
100
AcDbLine
 10
18.11959702087984
 20
7.850992344488914
 30
0.0
 11
21.63863259951617
 21
11.37002792312524
 31
0.0
  0
LINE
  5
18F
330
1F
100
AcDbEntity
  8
0
100
AcDbLine
 10
16.28058157436519
 20
6.086930216780039
 30
0.0
 11
16.31646059591843
 21
6.12280923833327
 31
0.0
  0
LINE
  5
190
330
1F
100
AcDbEntity
  8
0
100
AcDbLine
 10
18.11959702087984
 20
7.925945663294685
 30
0.0
 11
21.5636792807104
 21
11.37002792312525
 31
0.0
  0
LINE
  5
191
330
1F
100
AcDbEntity
  8
0
100
AcDbLine
 10
18.11959702087984
 20
8.000898982100463
 30
0.0
 11
21.48872596190463
 21
11.37002792312525
 31
0.0
  0
LINE
  5
192
330
1F
100
AcDbEntity
  8
0
100
AcDbLine
 10
18.11959702087984
 20
8.075852300906234
 30
0.0
 11
21.41377264309885
 21
11.37002792312524
 31
0.0
  0
LINE
  5
193
330
1F
100
AcDbEntity
  8
0
100
AcDbLine
 10
18.11959702087984
 20
8.150805619712008
 30
0.0
 11
21.33881932429308
 21
11.37002792312525
 31
0.0
  0
LINE
  5
194
330
1F
100
AcDbEntity
  8
0
100
AcDbLine
 10
18.11959702087984
 20
8.225758938517783
 30
0.0
 11
21.26386600548731
 21
11.37002792312525
 31
0.0
  0
LINE
  5
195
330
1F
100
AcDbEntity
  8
0
100
AcDbLine
 10
18.11959702087984
 20
8.300712257323555
 30
0.0
 11
21.18891268668154
 21
11.37002792312525
 31
0.0
  0
LINE
  5
196
330
1F
100
AcDbEntity
  8
0
100
AcDbLine
 10
18.11959702087984
 20
8.375665576129329
 30
0.0
 11
21.11395936787576
 21
11.37002792312524
 31
0.0
  0
LINE
  5
197
330
1F
100
AcDbEntity
  8
0
100
AcDbLine
 10
18.11959702087984
 20
8.450618894935104
 30
0.0
 11
21.03900604906999
 21
11.37002792312525
 31
0.0
  0
LINE
  5
198
330
1F
100
AcDbEntity
  8
0
100
AcDbLine
 10
18.11959702087984
 20
8.525572213740876
 30
0.0
 11
20.96405273026421
 21
11.37002792312525
 31
0.0
  0
LINE
  5
199
330
1F
100
AcDbEntity
  8
0
100
AcDbLine
 10
18.11959702087984
 20
8.60052553254665
 30
0.0
 11
20.88909941145844
 21
11.37002792312525
 31
0.0
  0
LINE
  5
19A
330
1F
100
AcDbEntity
  8
0
100
AcDbLine
 10
18.11959702087984
 20
8.675478851352425
 30
0.0
 11
20.81414609265267
 21
11.37002792312525
 31
0.0
  0
LINE
  5
19B
330
1F
100
AcDbEntity
  8
0
100
AcDbLine
 10
18.11959702087984
 20
8.750432170158197
 30
0.0
 11
20.7391927738469
 21
11.37002792312525
 31
0.0
  0
LINE
  5
19C
330
1F
100
AcDbEntity
  8
0
100
AcDbLine
 10
18.11959702087984
 20
8.82538548896397
 30
0.0
 11
20.66423945504112
 21
11.37002792312524
 31
0.0
  0
LINE
  5
19D
330
1F
100
AcDbEntity
  8
0
100
AcDbLine
 10
18.11959702087984
 20
8.900338807769746
 30
0.0
 11
20.58928613623534
 21
11.37002792312525
 31
0.0
  0
LINE
  5
19E
330
1F
100
AcDbEntity
  8
0
100
AcDbLine
 10
18.11959702087984
 20
8.975292126575518
 30
0.0
 11
20.51433281742957
 21
11.37002792312524
 31
0.0
  0
LINE
  5
19F
330
1F
100
AcDbEntity
  8
0
100
AcDbLine
 10
18.11959702087984
 20
9.050245445381291
 30
0.0
 11
20.4393794986238
 21
11.37002792312525
 31
0.0
  0
LINE
  5
1A0
330
1F
100
AcDbEntity
  8
0
100
AcDbLine
 10
18.11959702087984
 20
9.125198764187065
 30
0.0
 11
20.36442617981803
 21
11.37002792312525
 31
0.0
  0
LINE
  5
1A1
330
1F
100
AcDbEntity
  8
0
100
AcDbLine
 10
18.11959702087984
 20
9.200152082992838
 30
0.0
 11
20.28947286101225
 21
11.37002792312524
 31
0.0
  0
LINE
  5
1A2
330
1F
100
AcDbEntity
  8
0
100
AcDbLine
 10
18.11959702087984
 20
9.275105401798612
 30
0.0
 11
20.21451954220648
 21
11.37002792312525
 31
0.0
  0
LINE
  5
1A3
330
1F
100
AcDbEntity
  8
0
100
AcDbLine
 10
18.11959702087985
 20
9.35005872060439
 30
0.0
 11
20.1395662234007
 21
11.37002792312525
 31
0.0
  0
LINE
  5
1A4
330
1F
100
AcDbEntity
  8
0
100
AcDbLine
 10
18.11959702087984
 20
9.425012039410158
 30
0.0
 11
20.06461290459493
 21
11.37002792312525
 31
0.0
  0
LINE
  5
1A5
330
1F
100
AcDbEntity
  8
0
100
AcDbLine
 10
18.11959702087984
 20
9.499965358215935
 30
0.0
 11
19.98965958578916
 21
11.37002792312524
 31
0.0
  0
LINE
  5
1A6
330
1F
100
AcDbEntity
  8
0
100
AcDbLine
 10
18.11959702087984
 20
9.574918677021707
 30
0.0
 11
19.91470626698338
 21
11.37002792312525
 31
0.0
  0
LINE
  5
1A7
330
1F
100
AcDbEntity
  8
0
100
AcDbLine
 10
18.11959702087984
 20
9.649871995827478
 30
0.0
 11
19.83975294817761
 21
11.37002792312525
 31
0.0
  0
LINE
  5
1A8
330
1F
100
AcDbEntity
  8
0
100
AcDbLine
 10
18.11959702087984
 20
9.724825314633256
 30
0.0
 11
19.76479962937183
 21
11.37002792312524
 31
0.0
  0
LINE
  5
1A9
330
1F
100
AcDbEntity
  8
0
100
AcDbLine
 10
18.11959702087984
 20
9.79977863343903
 30
0.0
 11
19.68984631056606
 21
11.37002792312525
 31
0.0
  0
LINE
  5
1AA
330
1F
100
AcDbEntity
  8
0
100
AcDbLine
 10
18.11959702087984
 20
9.8747319522448
 30
0.0
 11
19.61489299176029
 21
11.37002792312525
 31
0.0
  0
LINE
  5
1AB
330
1F
100
AcDbEntity
  8
0
100
AcDbLine
 10
18.11959702087984
 20
9.949685271050576
 30
0.0
 11
19.53993967295451
 21
11.37002792312524
 31
0.0
  0
LINE
  5
1AC
330
1F
100
AcDbEntity
  8
0
100
AcDbLine
 10
18.11959702087984
 20
10.02463858985635
 30
0.0
 11
19.46498635414874
 21
11.37002792312524
 31
0.0
  0
LINE
  5
1AD
330
1F
100
AcDbEntity
  8
0
100
AcDbLine
 10
18.11959702087984
 20
10.09959190866212
 30
0.0
 11
19.39003303534297
 21
11.37002792312525
 31
0.0
  0
LINE
  5
1AE
330
1F
100
AcDbEntity
  8
0
100
AcDbLine
 10
18.11959702087984
 20
10.1745452274679
 30
0.0
 11
19.31507971653719
 21
11.37002792312524
 31
0.0
  0
LINE
  5
1AF
330
1F
100
AcDbEntity
  8
0
100
AcDbLine
 10
18.11959702087984
 20
10.24949854627367
 30
0.0
 11
19.24012639773142
 21
11.37002792312525
 31
0.0
  0
LINE
  5
1B0
330
1F
100
AcDbEntity
  8
0
100
AcDbLine
 10
18.11959702087984
 20
10.32445186507944
 30
0.0
 11
19.16517307892565
 21
11.37002792312525
 31
0.0
  0
LINE
  5
1B1
330
1F
100
AcDbEntity
  8
0
100
AcDbLine
 10
18.11959702087984
 20
10.39940518388522
 30
0.0
 11
19.09021976011987
 21
11.37002792312524
 31
0.0
  0
LINE
  5
1B2
330
1F
100
AcDbEntity
  8
0
100
AcDbLine
 10
18.11959702087984
 20
10.47435850269099
 30
0.0
 11
19.0152664413141
 21
11.37002792312525
 31
0.0
  0
LINE
  5
1B3
330
1F
100
AcDbEntity
  8
0
100
AcDbLine
 10
18.11959702087984
 20
10.54931182149676
 30
0.0
 11
18.94031312250832
 21
11.37002792312525
 31
0.0
  0
LINE
  5
1B4
330
1F
100
AcDbEntity
  8
0
100
AcDbLine
 10
18.11959702087984
 20
10.62426514030254
 30
0.0
 11
18.86535980370255
 21
11.37002792312524
 31
0.0
  0
LINE
  5
1B5
330
1F
100
AcDbEntity
  8
0
100
AcDbLine
 10
18.11959702087984
 20
10.69921845910831
 30
0.0
 11
18.79040648489678
 21
11.37002792312524
 31
0.0
  0
LINE
  5
1B6
330
1F
100
AcDbEntity
  8
0
100
AcDbLine
 10
18.11959702087984
 20
10.77417177791408
 30
0.0
 11
18.71545316609101
 21
11.37002792312525
 31
0.0
  0
LINE
  5
1B7
330
1F
100
AcDbEntity
  8
0
100
AcDbLine
 10
18.11959702087984
 20
10.84912509671986
 30
0.0
 11
18.64049984728523
 21
11.37002792312525
 31
0.0
  0
LINE
  5
1B8
330
1F
100
AcDbEntity
  8
0
100
AcDbLine
 10
18.11959702087984
 20
10.92407841552563
 30
0.0
 11
18.56554652847946
 21
11.37002792312525
 31
0.0
  0
LINE
  5
1B9
330
1F
100
AcDbEntity
  8
0
100
AcDbLine
 10
18.11959702087984
 20
10.9990317343314
 30
0.0
 11
18.49059320967368
 21
11.37002792312525
 31
0.0
  0
LINE
  5
1BA
330
1F
100
AcDbEntity
  8
0
100
AcDbLine
 10
18.11959702087984
 20
11.07398505313718
 30
0.0
 11
18.41563989086791
 21
11.37002792312525
 31
0.0
  0
LINE
  5
1BB
330
1F
100
AcDbEntity
  8
0
100
AcDbLine
 10
18.11959702087984
 20
11.14893837194295
 30
0.0
 11
18.34068657206214
 21
11.37002792312525
 31
0.0
  0
LINE
  5
1BC
330
1F
100
AcDbEntity
  8
0
100
AcDbLine
 10
18.11959702087984
 20
11.22389169074873
 30
0.0
 11
18.26573325325636
 21
11.37002792312525
 31
0.0
  0
LINE
  5
1BD
330
1F
100
AcDbEntity
  8
0
100
AcDbLine
 10
18.11959702087984
 20
11.2988450095545
 30
0.0
 11
18.19077993445059
 21
11.37002792312525
 31
0.0
  0
ENDSEC
  0
SECTION
  2
OBJECTS
  0
DICTIONARY
  5
C
330
0
100
AcDbDictionary
281
     1
  3
ACAD_COLOR
350
6C
  3
ACAD_GROUP
350
D
  3
ACAD_LAYOUT
350
1A
  3
ACAD_MATERIAL
350
6B
  3
ACAD_MLINESTYLE
350
17
  3
ACAD_PLOTSETTINGS
350
19
  3
ACAD_PLOTSTYLENAME
350
E
  3
ACAD_TABLESTYLE
350
92
  3
AcDbVariableDictionary
350
59
  0
DICTIONARY
  5
6C
102
{ACAD_REACTORS
330
C
102
}
330
C
100
AcDbDictionary
281
     1
  0
DICTIONARY
  5
D
102
{ACAD_REACTORS
330
C
102
}
330
C
100
AcDbDictionary
281
     1
  0
DICTIONARY
  5
1A
102
{ACAD_REACTORS
330
C
102
}
330
C
100
AcDbDictionary
281
     1
  3
Layout1
350
74
  3
Layout2
350
9C
  3
Model
350
22
  0
DICTIONARY
  5
6B
102
{ACAD_REACTORS
330
C
102
}
330
C
100
AcDbDictionary
281
     1
  0
DICTIONARY
  5
17
102
{ACAD_REACTORS
330
C
102
}
330
C
100
AcDbDictionary
281
     1
  3
Standard
350
18
  0
DICTIONARY
  5
19
102
{ACAD_REACTORS
330
C
102
}
330
C
100
AcDbDictionary
281
     1
  0
ACDBDICTIONARYWDFLT
  5
E
102
{ACAD_REACTORS
330
C
102
}
330
C
100
AcDbDictionary
281
     1
  3
Normal
350
F
100
AcDbDictionaryWithDefault
340
F
  0
DICTIONARY
  5
92
102
{ACAD_REACTORS
330
C
102
}
330
C
100
AcDbDictionary
281
     1
  0
DICTIONARY
  5
59
102
{ACAD_REACTORS
330
C
102
}
330
C
100
AcDbDictionary
281
     1
  3
CTABLESTYLE
350
98
  0
LAYOUT
  5
74
102
{ACAD_REACTORS
330
1A
102
}
330
1A
100
AcDbPlotSettings
  1

  2
\\ADSCCNDC1\hq601xrx1
  4

  6

 40
0.0
 41
0.0
 42
0.0
 43
0.0
 44
0.0
 45
0.0
 46
0.0
 47
0.0
 48
0.0
 49
0.0
140
0.0
141
0.0
142
1.0
143
1.0
 70
   688
 72
     0
 73
     0
 74
     5
  7

 75
    16
 76
     0
 77
     2
 78
   300
147
1.0
148
0.0
149
0.0
100
AcDbLayout
  1
Layout1
 70
     1
 71
     1
 10
0.0
 20
0.0
 11
12.0
 21
9.0
 12
0.0
 22
0.0
 32
0.0
 14
0.0
 24
0.0
 34
0.0
 15
0.0
 25
0.0
 35
0.0
146
0.0
 13
0.0
 23
0.0
 33
0.0
 16
1.0
 26
0.0
 36
0.0
 17
0.0
 27
1.0
 37
0.0
 76
     0
330
73
  0
LAYOUT
  5
9C
102
{ACAD_REACTORS
330
1A
102
}
330
1A
100
AcDbPlotSettings
  1

  2
None
  4

  6

 40
0.0
 41
0.0
 42
0.0
 43
0.0
 44
0.0
 45
0.0
 46
0.0
 47
0.0
 48
0.0
 49
0.0
140
0.0
141
0.0
142
1.0
143
1.0
 70
   688
 72
     0
 73
     0
 74
     5
  7

 75
    16
 76
     0
 77
     2
 78
   300
147
1.0
148
0.0
149
0.0
100
AcDbLayout
  1
Layout2
 70
     1
 71
     2
 10
0.0
 20
0.0
 11
12.0
 21
9.0
 12
0.0
 22
0.0
 32
0.0
 14
1.000000000000000E+20
 24
1.000000000000000E+20
 34
1.000000000000000E+20
 15
-1.000000000000000E+20
 25
-1.000000000000000E+20
 35
-1.000000000000000E+20
146
0.0
 13
0.0
 23
0.0
 33
0.0
 16
1.0
 26
0.0
 36
0.0
 17
0.0
 27
1.0
 37
0.0
 76
     0
330
9B
  0
LAYOUT
  5
22
102
{ACAD_REACTORS
330
1A
102
}
330
1A
100
AcDbPlotSettings
  1

  2
none_device
  4
Letter_(8.50_x_11.00_Inches)
  6

 40
6.349999904632568
 41
6.349999904632568
 42
6.350006103515625
 43
6.350006103515625
 44
215.8999938964844
 45
279.3999938964844
 46
0.0
 47
0.0
 48
0.0
 49
0.0
140
0.0
141
0.0
142
1.0
143
3.560208697428377
 70
 11952
 72
     0
 73
     1
 74
     0
  7

 75
     0
 76
     0
 77
     2
 78
   300
147
0.28088241027059
148
0.1311165230791651
149
0.096403374003771
100
AcDbLayout
  1
Model
 70
     1
 71
     0
 10
0.0
 20
0.0
 11
12.0
 21
9.0
 12
0.0
 22
0.0
 32
0.0
 14
16.24470255281198
 24
1.370035722265406
 34
0.0
 15
25.75024958494824
 25
11.37002792312525
 35
0.0
146
0.0
 13
0.0
 23
0.0
 33
0.0
 16
1.0
 26
0.0
 36
0.0
 17
0.0
 27
1.0
 37
0.0
 76
     0
330
1F
  0
MLINESTYLE
  5
18
102
{ACAD_REACTORS
330
17
102
}
330
17
100
AcDbMlineStyle
  2
Standard
 70
     0
  3

 62
   256
 51
90.0
 52
90.0
 71
     2
 49
0.5
 62
   256
  6
BYLAYER
 49
-0.5
 62
   256
  6
BYLAYER
  0
ACDBPLACEHOLDER
  5
F
102
{ACAD_REACTORS
330
E
102
}
330
E
  0
DICTIONARYVAR
  5
98
102
{ACAD_REACTORS
330
59
102
}
330
59
100
DictionaryVariables
280
     0
  1
STANDARD
  0
ENDSEC
  0
EOF
